S  P  O  C  K  '  S    B  E  A  R  D
"Chatauqua"
guitar tablature
By Macahan
click here to print this page

<<back

#--------------------------------PLEASE NOTE----------------------------------#
#This file is the author's own work and represents their interpretation of the#
# song. You may use this file to whatever you want, I don't care really, and  #
#      since you obviously like prog music too, you must be a nice chap.      #
#-----------------------------------------------------------------------------#


ALSO NOTE: After tabbing a while I realised that mr Morse has tuned his
           guitar down one step for some reason. But I kept on tabbing the
           whole tab as I had started it, and then simply changed all 8's to
           9's, all 7's to 8's, all 6's to ... well, you get the picture.
           So, therefore there are two versions of this tab in this file.
           The first one needs -1 tuning for album pitch, and must be the
           way mr. Morse plays it, the second needs standard tuning, for
           album pitch.

                                                            Cherio, Macahan.


                                 'Chatauqua'
                              by Spock's Beard
                       tabbed by the_unifaun@hotmail.com

Tune down one step to get album's pitch.

                             S
|--3p2-----------------------------------------------------|
|-------5p3--5p3---------3---5~----3p1---------------------|
|----------------5-4-5-2---0-5---------4p2--5p4-2-0--------|
|--2-------------------------5----------------------4~-----|
|-------2----3-----------2---3-----0---2----3-----2-1~-h2--|
|------------------3h5--------------------------2----------|

   S
|--3-2-0h2p0----------------------3/8-8--|
|--5---------3-5-3---------3---5---------|
|--4---------------5-4-5-2--------5/9-9--|
|--2-------------------------5-----------|
|------------2-3-----------2---3---------|
|--------------------3-5-----------------|

   S                  S       S
|---------------------------------|
|---3-1---------------3-1---------|
|--x----4-2-4---------5---4-2-4~--|
|--x------------------5-------4---|
|--2------------0-2---3-------2---|
|--------------2------------------|


0:23  S               S          S               S
|--------------2-3-2---0------------------2-3-2-----/5-5--|
|----------3-5-------3-3-3---3--------3-5-------3-5-------|
|--2---4-5-------------2---2------4-5-------------5-------|
|------5---------------0----------5---------------4-------|
|------3--------------------------3---------------2----2--|
|---------------------------------------------------------|

   S               S          S               S       S
|----------2-3-2---0------------------2-3-2-----/5-5--3~--|
|------3-5-------3-3-3---3--------3-5-------3-5-------2---|
|--4-5-------------2---2------4-5-------------4-------2---|
|--5---------------0----------5---------------4-------2---|
|--3--------------------------3---------------2-----------|
|--------------------------------------------------5------|


0:46
   S                                  S
|--2-3-2-0----------------------------2-3-2-0------------------0-2-3-2h3--|
|--3---3-3----------------------------3---3-3------------0-2-3------------|
|--2---2-2--2-----0-------------------2---2-2--2-----0-2------------------|
|--0---0-0----5p4---2-4h5-4p2p0-------0---0-0----5p4----------------------|
|-------------------------------2p0---------------------------------------|
|-------------------------------------------------------------------------|

   S
|--2-3-2-0--------------------------------7------5------7-7----5--|
|--3---3-3----------------------------------------------------5---|
|--2---2-2--2-----0----------------------6------6------6----------|
|--0---0-0----5p4---2-4h5-4p2p0---------7------7------7------7----|
|-------------------------------2p0----7------7------7-------7----|
|-------------------------------------5------5------5--------5----|

   S                                  S
|--2-3-2-0----------------------------2-3-2-0--------------------0-2--|
|--3---3-3----------------------------3---3-3----------0---3p2-3------|
|--2---2-2--2-----0-------------------2---2-2--2-----0---2------------|
|--0---0-0----5p4---2-4h5-4p2p0-------0---0-0----5p4------------------|
|-------------------------------2p0-----------------------------------|
|---------------------------------------------------------------------|


|--3h5p3p2p0-3p2p0---------------------7------5------7-7----5--|
|------------------3-2-0-----------------------------------5---|
|------------------------2------------6------6------6----------|
|--------------------------4-2-------7------7------7------7----|
|------------------------------4-2--7------7------7-------7----|
|----------------------------------5------5------5--------5----|

   S               S
|----------2-3-2---0--------------7------5------7-7----5--|
|------3-5-------3-3-3---3----------------------------5---|
|--4-5-------------2---2---------6------6------6----------|
|--5---------------0------------7------7------7------7----|
|--3---------------------------7------7------7-------7----|
|-----------------------------5------5------5--------5----|

                                  S
|-------7-----4-5-----5-7-7----4--5--|
|------5-----4-------5---------2--3--|
|---6h7-----5-------5-------------5--|
|--5-------4-------3---------2----3--|
|------------------------------------|
|------------------------------------|

                                       
_______________________________________
1:34                                  | 1.
|-----0-2-3--------------------------------0-2-3-----------------------------|
|.--3----------0-1-3---------------------3----------0-1-3--------------0----.|
|------------2----------0-2-4p2---4-2-------------2----------0-2-4-2-0---2---|
|.--------------------2---------5---1----------------------2-----------2-1--.|
|------------------3------------3-----------------------3----------0-3-------|
|---------0-----------------2------------------0-----------------2-----------|

_____________________
| 2.
|----0-2-3----------0-2-3-5-----0-2------0-2-3--------------------------|
|--3---------0-1-3----------2-3--------3---------0-1-3-------0-----0----|
|----------2-----------------------------------2---------0-2---2-0---2--|
|---------------------------------0--------------------2-------------1--|
|----------------3--------0--------------------------3-----------3------|
|--------0-----------------------------------0---------------2----------|

                                              S S   S       S   S       S S
|----0-2-3-----------0-2-3-5-----0-2--5-------------5-----------5------------|
|--3----------0-1-3----------2-3--------2-3-5-7-7---5-----5-7---5-----5-5-4--|
|-----------2---------------------------------7-7---6-6-7---7---6-6-7---4-4--|
|----------------------------------0----------7-7---7-------7---7-------4-4--|
|-----------------3--------0----------0-------5-5---7-------5---7-------2-2--|
|--------0-------------------------------------------------------------------|


2:07
   S                        S                        S   S
|--3p2-----------------------------------------------2---3--|
|--5----5-3-5p3---------3---5~----3p1----------------2---2--|
|--4------------5-4-5-2-----5---------4p2--5p4-2-0---3---4--|
|--2----------------------5-5----------------------4--------|
|---------2-3-----------2---3-----0---2----3-----2-1---2----|
|-----------------3h5--------------------------2------------|

   S
|--3-2-0h2p0---0---------------0--3/8-8--|
|--5---------3---3-1-0-1---3-------------|
|--4---------------------2---0----5/9-9--|
|--2-------------------------------------|
|------------2-3-------0---2---3---------|
|--------------------3-------------------|

   S                   S       S
|----------------------------------|
|---3-1----------------3-1---------|
|--x----4-2-4----------5---4-2-4~--|
|--x-------------------5-------4---|
|--2-------------0-2---3-------2---|
|--------------2-------------------|

                        sliding noise
2:28  S                      V
|----------------------------------------5--|
|------------0-------0-2-0-----5-4---4-7----|
|--2~--1---1---2---2-------1-4-----4--------|
|------2-2-------4--------------------------|
|------2------------------------------------|
|------------------------0------------------|

                sliding noises
                      V   V              S
|------------------------------------5---7~--|
|--------0-------0-2-0-----5-4---4-7-----7---|
|--1---1---2---2-------1-4-----4---------9---|
|----2-------4---------------------------9---|
|----------------------------------------7---|
|--------------------0-----------------------|

------------------------------------------------------------------------------

                                 'Chatauqua'
                              by Spock's Beard
                       tabbed by the_unifaun@hotmail.com

                             S
|--2p1-----------------------------------------------------|
|-------4p2--4p2---------2---4~----2p0---------------------|
|----------------4-3-4-1-----4---------3p1--4p3-1----------|
|--1-----------------------4-4--------------------4-3~-----|
|-------1----2-----------1---2---------1----2-----1-0~-h1--|
|------------------2h4-------------4------------1----------|

   S
|---------------------------------2/7-7--|
|--7-6-4h6p4-2-4-2---------2---4---------|
|--8---------------4-3-4-1--------4/8-8--|
|--8-------------------------4-----------|
|--6---------1-2-----------1---2---------|
|--------------------2-4-----------------|

   S                   S       S
|----------------------------------|
|---2-0----------------2-0---------|
|--x----3-1-3----------4---3-1-3~--|
|--x-------------------4-------3---|
|--1---------------1---2-------1---|
|--------------1h4-----------------|


0:23  S               S          S               S
|--------------1-2-1----------------------1-2-1-----/4-4--|
|----------2-4-------2----------------2-4-------2-4-------|
|--1---3-4-------------8-6---6----3-4-------------4-------|
|------4---------------6---6------4---------------3-------|
|------2---------------4----------2---------------1----1--|
|---------------------------------------------------------|

   S               S          S               S       S
|----------1-2-1----------------------1-2-1-----/4-4--2~--|
|------2-4-------2----------------2-4-------2-4-------1---|
|--3-4-------------8-6---6----3-4-------------3-------1---|
|--4---------------6---6------4---------------3-------1---|
|--2---------------4----------2---------------1-----------|
|--------------------------------------------------4------|


0:46
   S                                 S
|------------------------------------------------------------------------|
|--6-7-6-4---------------------------6-7-6-4------------------4-6-7-6h7--|
|--6---6-6---------------------------6---6-6------------3-5-6------------|
|--6---6-6--6-4p3-4-1-3h4-3p1--------6---6-6--6-4p3-4-6------------------|
|--4---4-4-------------------4-------4---4-4-----------------------------|
|------------------------------6p4---------------------------------------|

   S
|-----------------------------------------6------4------6-6----4--|
|--6-7-6-4----------------------------------------------------4---|
|--6---6-6-------------------------------5------5------5----------|
|--6---6-6--6-4p3-4-1-3h4-3p1-----------6------6------6------6----|
|--4---4-4-------------------4---------6------6------6-------6----|
|------------------------------6p4----4------4------4--------4----|

   S                                 S
|--------------------------------------------------------------------|
|--6-7-6-4---------------------------6-7-6-4----------------------6--|
|--6---6-6---------------------------6---6-6----------3---6p5-6-8----|
|--6---6-6--6-4p3-4-1-3h4-3p1--------6---6-6--6-4p3-4---6------------|
|--4---4-4-------------------4-------4---4-4-------------------------|
|------------------------------6p4-----------------------------------|


|-------------------------------------6------4------6-6----4--|
|--7h9p7-6---7p6------------------------------------------4---|
|----------8----8-6-5----------------5------5------5----------|
|---------------------8-6-----------6------6------6------6----|
|-------------------------8-6------6------6------6-------6----|
|-----------------------------8-6-4------4------4--------4----|

   S               S
|----------1-2-1------------------6------4------6-6----4--|
|------2-4-------2------------------------------------4---|
|--3-4-------------8-6---6-------5------5------5----------|
|--4---------------6---6--------6------6------6------6----|
|--2---------------4-----------6------6------6-------6----|
|-----------------------------4------4------4--------4----|

                                  S
|-------6-----3-4-----4-6-6----3--4--|
|------4-----3-------4---------1--2--|
|---5h6-----4-------4-------------4--|
|--4-------3-------2---------1----2--|
|------------------------------------|
|------------------------------------|

                                       
_______________________________________
1:34                                  | 1.
|-------1-2----------------------------------1-2-----------------------------|
|.--2-4----------0-2---------------------2-4----------0-2-------------------.|
|------------1-3----------1-3p1---3-1-------------1-3----------1-3-1---3-1---|
|.--------------------1-4-------4---0----------------------1-4-------4-1-0--.|
|---------V--------2------------2--------------V--------2------------2-------|
|----(-1)-or-2--------------1-------------(-1)-or-2--------------1-4---------|
Oops! Didn't know it was tuned down, or something.
But yet mr Morse (Neal I guess) hits a Eb note here. A F# works too.
This explains why there's a lot of flat chords in this song, that would be
easier to play if they were half a note higher. Perhaps a tuned down version
of this tab will be a future project.

_____________________
| 2.
|------1-2------------1-2-4-------1---------1-2------------------------|
|--2-4---------0-2--4-------1-2-4-------2-4----------2-----------------|
|----------1-3---------------------------------1-3-4------1-3h1---3-1--|
|------------------------------------------------------1-4------4---0--|
|--------V-------2----------------4----------V-------2----------2------|
|---(-1)-or-2-------------4-------------(-1)-or-2-----------1----------|

                                              S S   S       S   S       S S
|------1-2-------------1-2-4-------1--4-------------4-----------4------------|
|--2-4----------0-2--4-------1-2-4----------4-6-6---4-----4-6---4-----4-4-3--|
|-----------1-3-------------------------5-6---6-6---5-5-6---6---5-5-6---3-3--|
|---------------------------------------------6-6---6-------6---6-------3-3--|
|--------V--------2----------------4----------4-4---6-------4---6-------1-1--|
|---(-1)-or-2--------------4----------4--------------------------------------|


2:07
   S                        S                        S   S
|--2p1-----------------------------------------------1---2--|
|--4----4-2-4p2---------2---4~----2p0----------------1---1--|
|--3------------4-3-4-1-----4---------3p1--4p3-1-----2---3--|
|--1----------------------4-4--------------------4-3--------|
|---------1-2-----------1---2---------1----2-----1-0---1----|
|-----------------2h4-------------4------------1------------|

   S
|--------------------------------2/7-7--|
|--7-6-4h6p4--------------2---4---------|
|--8--------6-8-6-4-3-4-1--------4/8-8--|
|--8------------------------4-----------|
|--6----------------------1---2---------|
|-----------6-7-----2-4-----------------|

   S                   S       S
|----------------------------------|
|---2-0----------------2-0---------|
|--x----3-1-3----------4---3-1-3~--|
|--x-------------------4-------3---|
|--1---------------1---2-------1---|
|--------------1h4-----------------|

                        sliding noise
2:28  S                      V
|----------------------------------------4--|
|----------------------1-------4-3---3-6----|
|--1~--0---0-3-1---1-3---3-0-3-----3--------|
|------1-1-------3--------------------------|
|------1-----------------V------------------|
|-------------------(-1)-or-2---------------|

                sliding noises
                      V   V              S
|------------------------------------4---6~--|
|------------------1-------4-3---3-6-----6---|
|--0---0-3-1---1-3---3-0-3-----3---------8---|
|----1-------3---------------------------8---|
|--------------------V-------------------6---|
|---------------(-1)-or-2--------------------|

------------------------------------------------------------------------------
7~     hold (longer than other notes)
7h9    hammer-on
9p7    pull-off
7(9)   bend
(9)7   release
(9)r   release
7/9    slide up
9\7    slide down
<7>    natural harmonics
7tr9   trill
V      indicates where actual note is
S      strum low to high


2003 Spock's Beard